5ちゃんねる ★スマホ版★ ■掲示板に戻る■ 全部 1- 最新50  

■ このスレッドは過去ログ倉庫に格納されています

MOTHER耳コピスレ

1 :1 ◆wQE5rl9e42 :2007/04/21(土) 11:01:49 ID:oA5pQX7t
独特の雰囲気があり、シナリオもさることながら、
音楽についても評価の高いMOTHERシリーズ。
皆さんで耳コピしていきましょう。

基本sage進行でお願いします。まったりと進めたいと思います。

【MOTHER1+2公式】http://www.nintendo.co.jp/n08/a2uj/
【MOTHER3公式】http://www.nintendo.co.jp/n08/a3uj/

2 :名無しのテーマ:2007/04/21(土) 12:47:06 ID:9ixlt9gT
MOTHER3で音楽の劣化ぶりは酷い


3 :名無しのテーマ:2007/04/21(土) 14:13:30 ID:Vyakh57x
んなこたぁない

4 :名無しのテーマ:2007/04/21(土) 14:21:02 ID:xav2soXG
1と2は好きだったですね。私も3のサントラには失望しました。
期待が大きすぎたのかもしれないですが。

5 :1 ◆wQE5rl9e42 :2007/04/24(火) 01:35:42 ID:f0WIavYr
MOTHER1+2のサントラ2番目に入ってる曲、
『Pollyanna(I Believe in You) 』の耳コピ(ギターTAB譜)うpします。

E ----0--------2-----------0--------2----------------7----------
B ------23-0033--3-----------23-0033--3-------------3--320232023
G --22------------2-00---22------------2-00---------------------
D 44-------------------44-------------------42024202------------
A --------------------------------------------------------------
E --------------------------------------------------------------

E ------------0---------------------------------2---------------
B -------------323-023202320232023---32023202333--33------------
G 222-2----222---------------------22---------------------------
D -----420------------------------------------------------------
A --------------------------------------------------------------
E --------------------------------------------------------------

6 :1 ◆wQE5rl9e42 :2007/04/24(火) 01:40:23 ID:f0WIavYr
追記、一番初めのフレーズが抜けてました。
E --------------------------------------------------------------
B -032333-0--03233----------------------------------------------
G 0------2--0---------------------------------------------------
D --------------------------------------------------------------
A --------------------------------------------------------------
E --------------------------------------------------------------

7 :名無しのテーマ:2007/04/24(火) 05:13:45 ID:Dbqq5L8t
確かに3の曲は残念な出来だったね。

3 KB
■ このスレッドは過去ログ倉庫に格納されています

★スマホ版★ 掲示板に戻る 全部 前100 次100 最新50

read.cgi ver 05.04.00 2017/10/04 Walang Kapalit ★
FOX ★ DSO(Dynamic Shared Object)